学曲谱,请上曲谱自学网!

婚礼进行曲吉他谱

时间:2019-08-13 21:17:00编辑:刘牛来源:曲谱自学网

曲谱自学网今天精心准备的是《婚礼进行曲吉他谱》,下面是详解!

婚礼进行曲吉他简谱

追问

嗯嗯

谁有婚礼进行曲的吉他谱,想练一练玩一玩?最好是...

更多追问追答

追答

这个版本最好弹

追问

谢谢

这个不太清楚有没有清楚的,发原图

追答

没有 我是从我的吉他谱上拍的

那一块不清楚我重拍?

我好像给你发错了……

你要的是婚礼进行曲是吧?

追问

嗯嗯

貌似更不清楚啊,唉算了

婚礼进行曲吉他谱谁知道数字版的吗麻烦提供一下

没数字版,写起麻烦,只有指弹独奏版的。

婚礼进行曲的简谱

谁知道婚礼进行曲的简谱数字那种的...

谁知道 婚礼进行曲的简谱 数字那种的

拓展资料:婚礼进行曲的创作过程

瓦格纳的《婚礼进行曲》原是三幕传奇歌剧《罗恩格林》里的一首混声四部合唱。《罗恩格林》剧情梗概是这样的:

在天上“圣林王国”里,有位守卫圣杯的武士名叫罗恩格林。一天,他看到人间发生一件不平之事,便来到人间,击败了那阴险的篡位者弗列德里克,解救了被诬害的公主爱尔莎。并且使被妖法变成天鹅的王子——爱尔莎的弟弟恢复了人形。

爱尔莎不知道罗恩格林是神,她爱上了这位勇敢、年轻的武士。罗恩格林也爱上了爱尔莎,答应和她结婚,但是有个条件,那就是永远不许爱尔莎探问他的姓名和来历。在结婚的那天晚上,善良、单纯的爱尔莎被坏人挑唆,提出了不该提的问题,因为誓约被破坏了,罗恩格林只好惋惜地告别了她,回到“圣林王国”里去了。

在歌剧《罗恩格林》里,有两首婚礼音乐,一首是第二慕里,罗恩格林和爱尔莎到教堂举行婚礼时的庆典音乐《到明斯特去》;另一首是第三幕第一场开始时,贵妇们引导新人进入新房的混声合唱。但是,后一首比前一首要流行得多。通常人们提到瓦格纳的《婚礼进行曲》,指的就是这后一首。它的旋律优美,速度徐缓,庄重而抒情。

1843年,莎士比亚的著名喜剧《仲夏夜之梦》准备在波茨坦和柏林上演。演出负责人请门德尔松为这出戏写些配乐。他为这出戏写了12段配乐。他把原来那首序曲原封不动地拿来作为剧作的序曲。

戏剧音乐总共是13段。其它段子里有的还安排有合唱和独唱。在12段配乐里,第五幕的《婚礼进行曲》是相当精彩的。这首《婚礼进行曲》。用复三部曲式写成,C大调,4/4拍,第一主题从辉煌的号角开始,引出热烈而隆重的旋律;第二主题仍然保持着热烈的气氛;中段旋律柔美、情意甜蜜,给人以幸福感;最后,第一部分的两个主题再现,接尾声。

这首《婚礼进行曲》已成为世界性的婚礼仪典进行曲。它和瓦格纳的歌剧《罗恩格林》里的一首《婚礼进行曲》齐名,经常被人们在婚礼上一并使用。一首作为新人入场举行婚礼庆典音乐;一首则是作为礼成之后,送新人进入洞房时的庆典音乐。像一些外国影片,例如《攻克柏林》、《叶塞尼亚》里的婚礼场面,也都选用了这支曲子。

婚礼进行曲 电吉他谱gp5

发我邮箱373323789@qq.com谢了最好还有为你祝福的电吉他谱...

发我邮箱373323789@qq.com 谢了 最好还有 为你祝福的 电吉他谱

  Part A (Special Intro)

  e|----------------|-----------|----||
  B|-----0----------|------0--0-|-1--||
  G|-2--------------|---0--0--0-|-0--||
  D|---4---1-2---0--|-3---------|-2--||
  A|-----------4----|-----------|-3--||
  E|----------------|-----------|----||

  Part B (Intro)

  e|----------------|----------------|----------------|----------------|
  B|----------------|----------------|----------------|----------------|
  G|----------------|----------------|----------------|----------------|
  D|----------------|----------------|----------------|-2------2-2-2---|
  A|----------3-3-3-|-3--------3-3-3-|-3--------3-3-3-|-3------3-3-3---|
  E|----------------|----------------|----------------|----------------|

  e|----------------|----------------|----------------|
  B|----------------|----------------|----------------|
  G|----------------|-0---0-0-0-0----|----0---0---0---|
  D|-2-2-2-2--2-2-2-|-2---2-2-2-2----|----2---2---2---|
  A|-3-3-3-3--3-3-3-|-3---3-3-3-3----|----3---3---3---|
  E|----------------|----------------|----------------|

  Part C (Chorus)

  e|-8-----7--------|-5---3---1------|----------------|-----0------0-3-|
  B|-7-----7-----7--|-7---5---3---3--|-1-3-1-3-1-0-1-3|---3-------1----|
  G|-9-----8-----8--|-------------2--|----------------|-0--------0-----|
  D|----------------|----------------|----------------|---------2------|
  A|-0--------------|----------------|---------------2|-2---3--3-------|
  E|-------7-----7--|-0-------1---1--|-3--------------|----------------|
  \____tr____/

  e|-8-----7--------|-5---3---1------|---------------0|---0------------|
  B|-7-----7-----7--|-7---5---3---3--|-1-3-1-3-1-0-1--|-3---3-1--------|
  G|-9-----8-----8--|-------------2--|----------------|----------------|
  D|----------------|----------------|----------------|----------------|
  A|-0--------------|----------------|---------------3|-2---3----------|
  E|-------7-----7--|-0-------1---1--|-3--------------|----------------|
  \____tr____/

  Part D (Bridge 1)

  e|----------------|----------------|----------------|----------------|
  B|----------------|------------1---|----------------|------------1---|
  G|----------------|---------0------|----------------|---------0------|
  D|----------------|------2---------|----------------|------2---------|
  A|---3--3--3--3---|---3------------|---3--3--3--3---|---3------------|
  E|----------------|----------------|----------------|----------------|

  e|----------------|------------0---|----------------|------------0---|
  B|----------------|---------1------|----------------|---------1------|
  G|----------------|------0---------|----------------|------0---------|
  D|------------2---|---2------------|---2--2--2--2---|---2------------|
  A|---3--3--3--3---|---3------------|---3--3--3--3---|---3------------|
  E|----------------|----------------|----------------|----------------|

  e|----------------|-----0-3-----0-3|
  B|----------------|---1-------1----|
  G|---0--0--0--0---|-0-------0------|
  D|---2--2--2--2---|-2--------------|
  A|---3--3--3--3---|-3--------------|
  E|----------------|----------------|

  Part E (Chorus)

  e|-8-----7--------|-5---3---1------|----------------|-----0------0-3-|
  B|-7-----7-----7--|-7---5---3---3--|-1-3-1-3-1-0-1-3|---3-------1----|
  G|-9-----8-----8--|-------------2--|----------------|-0--------0-----|
  D|----------------|----------------|----------------|---------2------|
  A|-0--------------|----------------|---------------2|-2---3--3-------|
  E|-------7-----7--|-0-------1---1--|-3--------------|----------------|
  \____tr____/

  e|-8-----7--------|-5---3---1------|---------------0|---0------------|
  B|-7-----7-----7--|-7---5---3---3--|-1-3-1-3-1-0-1--|-3---3-1--------|
  G|-9-----8-----8--|-------------2--|----------------|----------------|
  D|----------------|----------------|----------------|----------------|
  A|-0--------------|----------------|---------------3|-2---3----------|
  E|-------7-----7--|-0-------1---1--|-3--------------|----------------|
  \____tr____/

  Part F (Bridge 2)

  e|----------------|-0--------------|----------------|-0--------------|
  B|-1------1---1---|-1---3---0------|--------1---1---|-1---3---0------|
  G|-0------0---0---|-0---0-------0--|-0------0---0---|-0---0-------0--|
  D|-2------2---2---|---------3---3--|-2------2---2---|---------3---3--|
  A|-3------3---3---|-3--------------|-3------3---3---|-3--------------|
  E|----------------|----------------|----------------|----------------|

  e|-----0---0---3--|-3------1---0---|-------0--------|-------3--5--7--|
  B|-----1---1---5--|-5------3---1---|-3--2-----3---1-|-0--------------|
  G|-0---0---0---5--|-5------2---2---|-2----------2---|-0-----0--------|
  D|-2--------------|--------3---3---|-3--------4-----|----------------|
  A|-3---3---3------|----------------|----------------|-------0--------|
  E|----------------|----------------|----------------|----------------|

  Part G (Chorus)

  e|-8-----7--------|-5---3---1------|----------------|-----0------0-3-|
  B|-7-----7-----7--|-7---5---3---3--|-1-3-1-3-1-0-1-3|---3-------1----|
  G|-9-----8-----8--|-------------2--|----------------|-0--------0-----|
  D|----------------|----------------|----------------|---------2------|
  A|-0--------------|----------------|---------------2|-2---3--3-------|
  E|-------7-----7--|-0-------1---1--|-3--------------|----------------|
  \____tr____/

  e|-8-----7--------|-5---3---1------|---------------0|---0--------0-3-|
  B|-7-----7-----7--|-7---5---3---3--|-1-3-1-3-1-0-1--|-3---3-1---1----|
  G|-9-----8-----8--|-------------2--|----------------|----------0-----|
  D|----------------|----------------|----------------|---------2------|
  A|-0--------------|----------------|---------------3|-2---3-3--------|
  E|-------7-----7--|-0-------1---1--|-3--------------|----------------|
  \____tr____/

  e|-8-----7--------|-5---3---1------|----------------|-----0------0-3-|
  B|-7-----7-----7--|-7---5---3---3--|-1-3-1-3-1-0-1-3|---3-------1----|
  G|-9-----8-----8--|-------------2--|----------------|-0--------0-----|
  D|----------------|----------------|----------------|---------2------|
  A|-0--------------|----------------|---------------2|-2---3--3-------|
  E|-------7-----7--|-0-------1---1--|-3--------------|----------------|
  \____tr____/

  e|-8-----7--------|-5---3---1------|---------------0|---0-----|-----||
  B|-7-----7-----7--|-7---5---3---3--|-1-3-1-3-1-0-1--|-3---3---|-1---||
  G|-9-----8-----8--|-------------2--|----------------|---------|-0---||
  D|----------------|----------------|----------------|---------|-2---||
  A|-0--------------|----------------|---------------3|-2---3---|-3---||
  E|-------7-----7--|-0-------1---1--|-3--------------|---------|-----||
  \____tr____/

  ----------------------------------------------------------------------

  Part H (Additional / Optional Ending)

  e|----------------|-----------|----||
  B|-----0----------|------0--0-|-1--||
  G|-2--------------|---0--0--0-|-0--||
  D|---4---1-2---0--|-3---------|-2--||
  A|-----------4----|-----------|-3--||
  E|----------------|-----------|----||

谁有结婚进行曲的吉他谱 不是胡彦斌的婚礼进行曲 ...

结婚当天新郎吉他新娘尤克里里(练习时间充足,指法简单的话也可互换)适合弹唱类的歌曲?...

结婚当天新郎吉他新娘尤克里里(练习时间充足,指法简单的话也可互换)适合弹唱类的歌曲?

明天我要嫁给你了
陶喆 爱很简单
此情可待
月亮代表我的心
情非得以
唯一

如果可以的话 还可以来段小独奏 婚礼进行曲。
希望可以帮助到你。

上一篇:奥林匹斯星传主题曲

下一篇:没有了

热门曲谱

Copyright © 2014-2019 曲谱大全(www.qpzxw.com)曲谱自学网版权所有 备案号:沪ICP备12023906号-1

版权声明:曲谱网所有曲谱及资料均为作者提供或网友推荐收集整理而来,仅供爱好者学习和研究使用,版权归原作者所有。